ISO-10303-21;
HEADER;
/* Generated by software containing ST-Developer
 * from STEP Tools, Inc. (www.steptools.com) 
 */

FILE_DESCRIPTION(
/* description */ (''),
/* implementation_level */ '2;1');

FILE_NAME(
/* name */ 
'Q:\\Ric010\\FF7\\FIPlastiCAD\\FIP\\Lavoro\\PVC Fittings\\PVC Fittings
 STEP\\IFFV\\IFFV200112.ipt.stp',
/* time_stamp */ '2013-10-01T14:44:00+02:00',
/* author */ ('bfaro'),
/* organization */ (''),
/* preprocessor_version */ 'ST-DEVELOPER v15.2',
/* originating_system */ 'Autodesk Inventor 2014',
/* authorisation */ '');

FILE_SCHEMA (('AUTOMOTIVE_DESIGN { 1 0 10303 214 3 1 1 }'));
ENDSEC;

DATA;
#10=SHAPE_REPRESENTATION_RELATIONSHIP('SRR','None',#525,#11);
#11=ADVANCED_BREP_SHAPE_REPRESENTATION($,(#311),#516);
#12=TOROIDAL_SURFACE($,#336,27.226,1.5);
#13=STYLED_ITEM($,(#534),#304);
#14=STYLED_ITEM($,(#534),#309);
#15=STYLED_ITEM($,(#533),#311);
#16=CYLINDRICAL_SURFACE($,#326,27.);
#17=CYLINDRICAL_SURFACE($,#330,15.5);
#18=CYLINDRICAL_SURFACE($,#334,25.726);
#19=CYLINDRICAL_SURFACE($,#339,37.);
#20=CYLINDRICAL_SURFACE($,#343,28.328);
#21=FACE_BOUND($,#72,.T.);
#22=FACE_BOUND($,#73,.T.);
#23=FACE_BOUND($,#74,.T.);
#24=FACE_BOUND($,#75,.T.);
#25=FACE_BOUND($,#77,.T.);
#26=FACE_BOUND($,#78,.T.);
#27=FACE_BOUND($,#79,.T.);
#28=FACE_BOUND($,#81,.T.);
#29=FACE_BOUND($,#83,.T.);
#30=FACE_BOUND($,#85,.T.);
#31=FACE_BOUND($,#87,.T.);
#32=FACE_BOUND($,#89,.T.);
#33=FACE_BOUND($,#91,.T.);
#34=FACE_BOUND($,#92,.T.);
#35=FACE_BOUND($,#93,.T.);
#36=FACE_BOUND($,#95,.T.);
#37=CIRCLE($,#322,37.);
#38=CIRCLE($,#324,27.);
#39=CIRCLE($,#325,28.328);
#40=CIRCLE($,#327,27.);
#41=CIRCLE($,#329,15.5);
#42=CIRCLE($,#331,15.5);
#43=CIRCLE($,#333,25.726);
#44=CIRCLE($,#335,25.726);
#45=CIRCLE($,#337,27.226);
#46=CIRCLE($,#340,37.);
#47=CIRCLE($,#342,28.328);
#48=FACE_OUTER_BOUND($,#64,.T.);
#49=FACE_OUTER_BOUND($,#65,.T.);
#50=FACE_OUTER_BOUND($,#66,.T.);
#51=FACE_OUTER_BOUND($,#67,.T.);
#52=FACE_OUTER_BOUND($,#68,.T.);
#53=FACE_OUTER_BOUND($,#69,.T.);
#54=FACE_OUTER_BOUND($,#70,.T.);
#55=FACE_OUTER_BOUND($,#71,.T.);
#56=FACE_OUTER_BOUND($,#76,.T.);
#57=FACE_OUTER_BOUND($,#80,.T.);
#58=FACE_OUTER_BOUND($,#82,.T.);
#59=FACE_OUTER_BOUND($,#84,.T.);
#60=FACE_OUTER_BOUND($,#86,.T.);
#61=FACE_OUTER_BOUND($,#88,.T.);
#62=FACE_OUTER_BOUND($,#90,.T.);
#63=FACE_OUTER_BOUND($,#94,.T.);
#64=EDGE_LOOP($,(#206,#207,#208,#209));
#65=EDGE_LOOP($,(#210,#211,#212,#213));
#66=EDGE_LOOP($,(#214,#215,#216,#217));
#67=EDGE_LOOP($,(#218,#219,#220,#221));
#68=EDGE_LOOP($,(#222,#223,#224,#225));
#69=EDGE_LOOP($,(#226,#227,#228,#229));
#70=EDGE_LOOP($,(#230,#231,#232,#233));
#71=EDGE_LOOP($,(#234,#235,#236,#237));
#72=EDGE_LOOP($,(#238));
#73=EDGE_LOOP($,(#239,#240,#241,#242,#243,#244,#245,#246));
#74=EDGE_LOOP($,(#247));
#75=EDGE_LOOP($,(#248));
#76=EDGE_LOOP($,(#249));
#77=EDGE_LOOP($,(#250));
#78=EDGE_LOOP($,(#251));
#79=EDGE_LOOP($,(#252));
#80=EDGE_LOOP($,(#253));
#81=EDGE_LOOP($,(#254));
#82=EDGE_LOOP($,(#255));
#83=EDGE_LOOP($,(#256));
#84=EDGE_LOOP($,(#257));
#85=EDGE_LOOP($,(#258));
#86=EDGE_LOOP($,(#259));
#87=EDGE_LOOP($,(#260));
#88=EDGE_LOOP($,(#261,#262,#263,#264,#265,#266,#267,#268));
#89=EDGE_LOOP($,(#269));
#90=EDGE_LOOP($,(#270));
#91=EDGE_LOOP($,(#271));
#92=EDGE_LOOP($,(#272));
#93=EDGE_LOOP($,(#273));
#94=EDGE_LOOP($,(#274));
#95=EDGE_LOOP($,(#275));
#96=LINE($,#436,#120);
#97=LINE($,#438,#121);
#98=LINE($,#440,#122);
#99=LINE($,#441,#123);
#100=LINE($,#444,#124);
#101=LINE($,#446,#125);
#102=LINE($,#447,#126);
#103=LINE($,#450,#127);
#104=LINE($,#452,#128);
#105=LINE($,#453,#129);
#106=LINE($,#456,#130);
#107=LINE($,#458,#131);
#108=LINE($,#459,#132);
#109=LINE($,#462,#133);
#110=LINE($,#464,#134);
#111=LINE($,#465,#135);
#112=LINE($,#468,#136);
#113=LINE($,#470,#137);
#114=LINE($,#471,#138);
#115=LINE($,#474,#139);
#116=LINE($,#476,#140);
#117=LINE($,#477,#141);
#118=LINE($,#479,#142);
#119=LINE($,#480,#143);
#120=VECTOR($,#348,33.1370849898476);
#121=VECTOR($,#349,14.5);
#122=VECTOR($,#350,33.1370849898476);
#123=VECTOR($,#351,14.5);
#124=VECTOR($,#354,33.1370849898476);
#125=VECTOR($,#355,33.1370849898476);
#126=VECTOR($,#356,14.5);
#127=VECTOR($,#359,33.1370849898476);
#128=VECTOR($,#360,33.1370849898476);
#129=VECTOR($,#361,14.5);
#130=VECTOR($,#364,33.1370849898476);
#131=VECTOR($,#365,33.1370849898476);
#132=VECTOR($,#366,14.5);
#133=VECTOR($,#369,33.1370849898476);
#134=VECTOR($,#370,33.1370849898476);
#135=VECTOR($,#371,14.5);
#136=VECTOR($,#374,33.1370849898476);
#137=VECTOR($,#375,33.1370849898476);
#138=VECTOR($,#376,14.5);
#139=VECTOR($,#379,33.1370849898476);
#140=VECTOR($,#380,33.1370849898476);
#141=VECTOR($,#381,14.5);
#142=VECTOR($,#384,33.1370849898476);
#143=VECTOR($,#385,33.1370849898476);
#144=VERTEX_POINT($,#434);
#145=VERTEX_POINT($,#435);
#146=VERTEX_POINT($,#437);
#147=VERTEX_POINT($,#439);
#148=VERTEX_POINT($,#443);
#149=VERTEX_POINT($,#445);
#150=VERTEX_POINT($,#449);
#151=VERTEX_POINT($,#451);
#152=VERTEX_POINT($,#455);
#153=VERTEX_POINT($,#457);
#154=VERTEX_POINT($,#461);
#155=VERTEX_POINT($,#463);
#156=VERTEX_POINT($,#467);
#157=VERTEX_POINT($,#469);
#158=VERTEX_POINT($,#473);
#159=VERTEX_POINT($,#475);
#160=VERTEX_POINT($,#482);
#161=VERTEX_POINT($,#485);
#162=VERTEX_POINT($,#487);
#163=VERTEX_POINT($,#490);
#164=VERTEX_POINT($,#493);
#165=VERTEX_POINT($,#496);
#166=VERTEX_POINT($,#499);
#167=VERTEX_POINT($,#502);
#168=VERTEX_POINT($,#505);
#169=VERTEX_POINT($,#509);
#170=VERTEX_POINT($,#512);
#171=EDGE_CURVE($,#144,#145,#96,.T.);
#172=EDGE_CURVE($,#145,#146,#97,.T.);
#173=EDGE_CURVE($,#147,#146,#98,.T.);
#174=EDGE_CURVE($,#144,#147,#99,.T.);
#175=EDGE_CURVE($,#148,#144,#100,.T.);
#176=EDGE_CURVE($,#149,#147,#101,.T.);
#177=EDGE_CURVE($,#148,#149,#102,.T.);
#178=EDGE_CURVE($,#150,#148,#103,.T.);
#179=EDGE_CURVE($,#151,#149,#104,.T.);
#180=EDGE_CURVE($,#150,#151,#105,.T.);
#181=EDGE_CURVE($,#152,#150,#106,.T.);
#182=EDGE_CURVE($,#153,#151,#107,.T.);
#183=EDGE_CURVE($,#152,#153,#108,.T.);
#184=EDGE_CURVE($,#154,#152,#109,.T.);
#185=EDGE_CURVE($,#155,#153,#110,.T.);
#186=EDGE_CURVE($,#154,#155,#111,.T.);
#187=EDGE_CURVE($,#156,#154,#112,.T.);
#188=EDGE_CURVE($,#157,#155,#113,.T.);
#189=EDGE_CURVE($,#156,#157,#114,.T.);
#190=EDGE_CURVE($,#158,#156,#115,.T.);
#191=EDGE_CURVE($,#159,#157,#116,.T.);
#192=EDGE_CURVE($,#158,#159,#117,.T.);
#193=EDGE_CURVE($,#145,#158,#118,.T.);
#194=EDGE_CURVE($,#146,#159,#119,.T.);
#195=EDGE_CURVE($,#160,#160,#37,.T.);
#196=EDGE_CURVE($,#161,#161,#38,.T.);
#197=EDGE_CURVE($,#162,#162,#39,.T.);
#198=EDGE_CURVE($,#163,#163,#40,.T.);
#199=EDGE_CURVE($,#164,#164,#41,.T.);
#200=EDGE_CURVE($,#165,#165,#42,.T.);
#201=EDGE_CURVE($,#166,#166,#43,.T.);
#202=EDGE_CURVE($,#167,#167,#44,.T.);
#203=EDGE_CURVE($,#168,#168,#45,.T.);
#204=EDGE_CURVE($,#169,#169,#46,.T.);
#205=EDGE_CURVE($,#170,#170,#47,.T.);
#206=ORIENTED_EDGE($,*,*,#171,.T.);
#207=ORIENTED_EDGE($,*,*,#172,.T.);
#208=ORIENTED_EDGE($,*,*,#173,.F.);
#209=ORIENTED_EDGE($,*,*,#174,.F.);
#210=ORIENTED_EDGE($,*,*,#175,.T.);
#211=ORIENTED_EDGE($,*,*,#174,.T.);
#212=ORIENTED_EDGE($,*,*,#176,.F.);
#213=ORIENTED_EDGE($,*,*,#177,.F.);
#214=ORIENTED_EDGE($,*,*,#178,.T.);
#215=ORIENTED_EDGE($,*,*,#177,.T.);
#216=ORIENTED_EDGE($,*,*,#179,.F.);
#217=ORIENTED_EDGE($,*,*,#180,.F.);
#218=ORIENTED_EDGE($,*,*,#181,.T.);
#219=ORIENTED_EDGE($,*,*,#180,.T.);
#220=ORIENTED_EDGE($,*,*,#182,.F.);
#221=ORIENTED_EDGE($,*,*,#183,.F.);
#222=ORIENTED_EDGE($,*,*,#184,.T.);
#223=ORIENTED_EDGE($,*,*,#183,.T.);
#224=ORIENTED_EDGE($,*,*,#185,.F.);
#225=ORIENTED_EDGE($,*,*,#186,.F.);
#226=ORIENTED_EDGE($,*,*,#187,.T.);
#227=ORIENTED_EDGE($,*,*,#186,.T.);
#228=ORIENTED_EDGE($,*,*,#188,.F.);
#229=ORIENTED_EDGE($,*,*,#189,.F.);
#230=ORIENTED_EDGE($,*,*,#190,.T.);
#231=ORIENTED_EDGE($,*,*,#189,.T.);
#232=ORIENTED_EDGE($,*,*,#191,.F.);
#233=ORIENTED_EDGE($,*,*,#192,.F.);
#234=ORIENTED_EDGE($,*,*,#193,.T.);
#235=ORIENTED_EDGE($,*,*,#192,.T.);
#236=ORIENTED_EDGE($,*,*,#194,.F.);
#237=ORIENTED_EDGE($,*,*,#172,.F.);
#238=ORIENTED_EDGE($,*,*,#195,.F.);
#239=ORIENTED_EDGE($,*,*,#194,.T.);
#240=ORIENTED_EDGE($,*,*,#191,.T.);
#241=ORIENTED_EDGE($,*,*,#188,.T.);
#242=ORIENTED_EDGE($,*,*,#185,.T.);
#243=ORIENTED_EDGE($,*,*,#182,.T.);
#244=ORIENTED_EDGE($,*,*,#179,.T.);
#245=ORIENTED_EDGE($,*,*,#176,.T.);
#246=ORIENTED_EDGE($,*,*,#173,.T.);
#247=ORIENTED_EDGE($,*,*,#196,.F.);
#248=ORIENTED_EDGE($,*,*,#197,.T.);
#249=ORIENTED_EDGE($,*,*,#198,.F.);
#250=ORIENTED_EDGE($,*,*,#196,.T.);
#251=ORIENTED_EDGE($,*,*,#199,.F.);
#252=ORIENTED_EDGE($,*,*,#198,.T.);
#253=ORIENTED_EDGE($,*,*,#200,.F.);
#254=ORIENTED_EDGE($,*,*,#199,.T.);
#255=ORIENTED_EDGE($,*,*,#201,.F.);
#256=ORIENTED_EDGE($,*,*,#200,.T.);
#257=ORIENTED_EDGE($,*,*,#202,.F.);
#258=ORIENTED_EDGE($,*,*,#201,.T.);
#259=ORIENTED_EDGE($,*,*,#203,.F.);
#260=ORIENTED_EDGE($,*,*,#202,.T.);
#261=ORIENTED_EDGE($,*,*,#193,.F.);
#262=ORIENTED_EDGE($,*,*,#171,.F.);
#263=ORIENTED_EDGE($,*,*,#175,.F.);
#264=ORIENTED_EDGE($,*,*,#178,.F.);
#265=ORIENTED_EDGE($,*,*,#181,.F.);
#266=ORIENTED_EDGE($,*,*,#184,.F.);
#267=ORIENTED_EDGE($,*,*,#187,.F.);
#268=ORIENTED_EDGE($,*,*,#190,.F.);
#269=ORIENTED_EDGE($,*,*,#203,.T.);
#270=ORIENTED_EDGE($,*,*,#195,.T.);
#271=ORIENTED_EDGE($,*,*,#204,.F.);
#272=ORIENTED_EDGE($,*,*,#205,.F.);
#273=ORIENTED_EDGE($,*,*,#204,.T.);
#274=ORIENTED_EDGE($,*,*,#197,.F.);
#275=ORIENTED_EDGE($,*,*,#205,.T.);
#276=PLANE($,#313);
#277=PLANE($,#314);
#278=PLANE($,#315);
#279=PLANE($,#316);
#280=PLANE($,#317);
#281=PLANE($,#318);
#282=PLANE($,#319);
#283=PLANE($,#320);
#284=PLANE($,#321);
#285=PLANE($,#323);
#286=PLANE($,#328);
#287=PLANE($,#332);
#288=PLANE($,#338);
#289=PLANE($,#341);
#290=ADVANCED_FACE($,(#48),#276,.T.);
#291=ADVANCED_FACE($,(#49),#277,.T.);
#292=ADVANCED_FACE($,(#50),#278,.T.);
#293=ADVANCED_FACE($,(#51),#279,.T.);
#294=ADVANCED_FACE($,(#52),#280,.T.);
#295=ADVANCED_FACE($,(#53),#281,.T.);
#296=ADVANCED_FACE($,(#54),#282,.T.);
#297=ADVANCED_FACE($,(#55),#283,.T.);
#298=ADVANCED_FACE($,(#21,#22),#284,.T.);
#299=ADVANCED_FACE($,(#23,#24),#285,.T.);
#300=ADVANCED_FACE($,(#56,#25),#16,.F.);
#301=ADVANCED_FACE($,(#26,#27),#286,.T.);
#302=ADVANCED_FACE($,(#57,#28),#17,.F.);
#303=ADVANCED_FACE($,(#58,#29),#287,.T.);
#304=ADVANCED_FACE($,(#59,#30),#18,.T.);
#305=ADVANCED_FACE($,(#60,#31),#12,.F.);
#306=ADVANCED_FACE($,(#61,#32),#288,.T.);
#307=ADVANCED_FACE($,(#62,#33),#19,.T.);
#308=ADVANCED_FACE($,(#34,#35),#289,.T.);
#309=ADVANCED_FACE($,(#63,#36),#20,.F.);
#310=CLOSED_SHELL($,(#290,#291,#292,#293,#294,#295,#296,#297,#298,#299,
#300,#301,#302,#303,#304,#305,#306,#307,#308,#309));
#311=MANIFOLD_SOLID_BREP('Solido1',#310);
#312=AXIS2_PLACEMENT_3D('placement',#432,#344,#345);
#313=AXIS2_PLACEMENT_3D($,#433,#346,#347);
#314=AXIS2_PLACEMENT_3D($,#442,#352,#353);
#315=AXIS2_PLACEMENT_3D($,#448,#357,#358);
#316=AXIS2_PLACEMENT_3D($,#454,#362,#363);
#317=AXIS2_PLACEMENT_3D($,#460,#367,#368);
#318=AXIS2_PLACEMENT_3D($,#466,#372,#373);
#319=AXIS2_PLACEMENT_3D($,#472,#377,#378);
#320=AXIS2_PLACEMENT_3D($,#478,#382,#383);
#321=AXIS2_PLACEMENT_3D($,#481,#386,#387);
#322=AXIS2_PLACEMENT_3D($,#483,#388,#389);
#323=AXIS2_PLACEMENT_3D($,#484,#390,#391);
#324=AXIS2_PLACEMENT_3D($,#486,#392,#393);
#325=AXIS2_PLACEMENT_3D($,#488,#394,#395);
#326=AXIS2_PLACEMENT_3D($,#489,#396,#397);
#327=AXIS2_PLACEMENT_3D($,#491,#398,#399);
#328=AXIS2_PLACEMENT_3D($,#492,#400,#401);
#329=AXIS2_PLACEMENT_3D($,#494,#402,#403);
#330=AXIS2_PLACEMENT_3D($,#495,#404,#405);
#331=AXIS2_PLACEMENT_3D($,#497,#406,#407);
#332=AXIS2_PLACEMENT_3D($,#498,#408,#409);
#333=AXIS2_PLACEMENT_3D($,#500,#410,#411);
#334=AXIS2_PLACEMENT_3D($,#501,#412,#413);
#335=AXIS2_PLACEMENT_3D($,#503,#414,#415);
#336=AXIS2_PLACEMENT_3D($,#504,#416,#417);
#337=AXIS2_PLACEMENT_3D($,#506,#418,#419);
#338=AXIS2_PLACEMENT_3D($,#507,#420,#421);
#339=AXIS2_PLACEMENT_3D($,#508,#422,#423);
#340=AXIS2_PLACEMENT_3D($,#510,#424,#425);
#341=AXIS2_PLACEMENT_3D($,#511,#426,#427);
#342=AXIS2_PLACEMENT_3D($,#513,#428,#429);
#343=AXIS2_PLACEMENT_3D($,#514,#430,#431);
#344=DIRECTION('axis',(0.,0.,1.));
#345=DIRECTION('refdir',(1.,0.,0.));
#346=DIRECTION('center_axis',(0.38268343236509,0.923879532511287,0.));
#347=DIRECTION('ref_axis',(-0.923879532511287,0.38268343236509,0.));
#348=DIRECTION($,(-0.923879532511287,0.38268343236509,0.));
#349=DIRECTION($,(0.,0.,1.));
#350=DIRECTION($,(-0.923879532511287,0.38268343236509,0.));
#351=DIRECTION($,(0.,0.,1.));
#352=DIRECTION('center_axis',(0.923879532511287,0.38268343236509,0.));
#353=DIRECTION('ref_axis',(-0.38268343236509,0.923879532511287,0.));
#354=DIRECTION($,(-0.38268343236509,0.923879532511287,0.));
#355=DIRECTION($,(-0.38268343236509,0.923879532511287,0.));
#356=DIRECTION($,(0.,0.,1.));
#357=DIRECTION('center_axis',(0.923879532511287,-0.38268343236509,0.));
#358=DIRECTION('ref_axis',(0.38268343236509,0.923879532511287,0.));
#359=DIRECTION($,(0.38268343236509,0.923879532511287,0.));
#360=DIRECTION($,(0.38268343236509,0.923879532511287,0.));
#361=DIRECTION($,(0.,0.,1.));
#362=DIRECTION('center_axis',(0.38268343236509,-0.923879532511287,0.));
#363=DIRECTION('ref_axis',(0.923879532511287,0.38268343236509,0.));
#364=DIRECTION($,(0.923879532511287,0.38268343236509,0.));
#365=DIRECTION($,(0.923879532511287,0.38268343236509,0.));
#366=DIRECTION($,(0.,0.,1.));
#367=DIRECTION('center_axis',(-0.38268343236509,-0.923879532511287,0.));
#368=DIRECTION('ref_axis',(0.923879532511287,-0.38268343236509,0.));
#369=DIRECTION($,(0.923879532511287,-0.38268343236509,0.));
#370=DIRECTION($,(0.923879532511287,-0.38268343236509,0.));
#371=DIRECTION($,(0.,0.,1.));
#372=DIRECTION('center_axis',(-0.923879532511287,-0.38268343236509,0.));
#373=DIRECTION('ref_axis',(0.38268343236509,-0.923879532511287,0.));
#374=DIRECTION($,(0.38268343236509,-0.923879532511287,0.));
#375=DIRECTION($,(0.38268343236509,-0.923879532511287,0.));
#376=DIRECTION($,(0.,0.,1.));
#377=DIRECTION('center_axis',(-0.923879532511287,0.382683432365089,0.));
#378=DIRECTION('ref_axis',(-0.382683432365089,-0.923879532511287,0.));
#379=DIRECTION($,(-0.382683432365089,-0.923879532511287,0.));
#380=DIRECTION($,(-0.382683432365089,-0.923879532511287,0.));
#381=DIRECTION($,(0.,0.,1.));
#382=DIRECTION('center_axis',(-0.38268343236509,0.923879532511287,0.));
#383=DIRECTION('ref_axis',(-0.923879532511287,-0.38268343236509,0.));
#384=DIRECTION($,(-0.923879532511287,-0.38268343236509,0.));
#385=DIRECTION($,(-0.923879532511287,-0.38268343236509,0.));
#386=DIRECTION('center_axis',(0.,0.,1.));
#387=DIRECTION('ref_axis',(1.,0.,0.));
#388=DIRECTION('center_axis',(0.,0.,1.));
#389=DIRECTION('ref_axis',(0.,-1.,0.));
#390=DIRECTION('center_axis',(0.,0.,1.));
#391=DIRECTION('ref_axis',(1.,0.,0.));
#392=DIRECTION('center_axis',(0.,0.,1.));
#393=DIRECTION('ref_axis',(0.,-1.,0.));
#394=DIRECTION('center_axis',(0.,0.,1.));
#395=DIRECTION('ref_axis',(0.,-1.,0.));
#396=DIRECTION('center_axis',(0.,0.,1.));
#397=DIRECTION('ref_axis',(0.,-1.,0.));
#398=DIRECTION('center_axis',(0.,0.,1.));
#399=DIRECTION('ref_axis',(0.,-1.,0.));
#400=DIRECTION('center_axis',(0.,0.,1.));
#401=DIRECTION('ref_axis',(1.,0.,0.));
#402=DIRECTION('center_axis',(0.,0.,1.));
#403=DIRECTION('ref_axis',(0.,-1.,0.));
#404=DIRECTION('center_axis',(0.,0.,1.));
#405=DIRECTION('ref_axis',(0.,-1.,0.));
#406=DIRECTION('center_axis',(0.,0.,1.));
#407=DIRECTION('ref_axis',(0.,-1.,0.));
#408=DIRECTION('center_axis',(0.,0.,-1.));
#409=DIRECTION('ref_axis',(-1.,0.,0.));
#410=DIRECTION('center_axis',(0.,0.,1.));
#411=DIRECTION('ref_axis',(0.,-1.,0.));
#412=DIRECTION('center_axis',(0.,0.,1.));
#413=DIRECTION('ref_axis',(0.,-1.,0.));
#414=DIRECTION('center_axis',(0.,0.,1.));
#415=DIRECTION('ref_axis',(0.,-1.,0.));
#416=DIRECTION('center_axis',(0.,0.,1.));
#417=DIRECTION('ref_axis',(1.,0.,0.));
#418=DIRECTION('center_axis',(0.,0.,1.));
#419=DIRECTION('ref_axis',(0.,-1.,0.));
#420=DIRECTION('center_axis',(0.,0.,-1.));
#421=DIRECTION('ref_axis',(-1.,0.,0.));
#422=DIRECTION('center_axis',(0.,0.,1.));
#423=DIRECTION('ref_axis',(0.,-1.,0.));
#424=DIRECTION('center_axis',(0.,0.,1.));
#425=DIRECTION('ref_axis',(0.,-1.,0.));
#426=DIRECTION('center_axis',(0.,0.,1.));
#427=DIRECTION('ref_axis',(1.,0.,0.));
#428=DIRECTION('center_axis',(0.,0.,1.));
#429=DIRECTION('ref_axis',(0.,-1.,0.));
#430=DIRECTION('center_axis',(0.,0.,1.));
#431=DIRECTION('ref_axis',(0.,-1.,0.));
#432=CARTESIAN_POINT('',(0.,0.,0.));
#433=CARTESIAN_POINT('Origin',(30.6146745892072,30.6146745892072,-7.5));
#434=CARTESIAN_POINT('',(30.6146745892072,30.6146745892072,-7.5));
#435=CARTESIAN_POINT('',(8.73440870143785E-016,43.2956880116958,-7.5));
#436=CARTESIAN_POINT($,(30.6146745892072,30.6146745892072,-7.5));
#437=CARTESIAN_POINT('',(8.73440870143785E-016,43.2956880116958,7.));
#438=CARTESIAN_POINT($,(8.73440870143785E-016,43.2956880116958,-7.5));
#439=CARTESIAN_POINT('',(30.6146745892072,30.6146745892072,7.));
#440=CARTESIAN_POINT($,(30.6146745892072,30.6146745892072,7.));
#441=CARTESIAN_POINT($,(30.6146745892072,30.6146745892072,-7.5));
#442=CARTESIAN_POINT('Origin',(43.2956880116958,-5.6456575669281E-015,-7.5));
#443=CARTESIAN_POINT('',(43.2956880116958,-5.6456575669281E-015,-7.5));
#444=CARTESIAN_POINT($,(43.2956880116958,-5.6456575669281E-015,-7.5));
#445=CARTESIAN_POINT('',(43.2956880116958,-8.88178419700125E-015,7.));
#446=CARTESIAN_POINT($,(43.2956880116958,-5.6456575669281E-015,7.));
#447=CARTESIAN_POINT($,(43.2956880116958,-5.6456575669281E-015,-7.5));
#448=CARTESIAN_POINT('Origin',(30.6146745892072,-30.6146745892072,-7.5));
#449=CARTESIAN_POINT('',(30.6146745892072,-30.6146745892072,-7.5));
#450=CARTESIAN_POINT($,(30.6146745892072,-30.6146745892072,-7.5));
#451=CARTESIAN_POINT('',(30.6146745892072,-30.6146745892072,7.));
#452=CARTESIAN_POINT($,(30.6146745892072,-30.6146745892072,7.));
#453=CARTESIAN_POINT($,(30.6146745892072,-30.6146745892072,-7.5));
#454=CARTESIAN_POINT('Origin',(3.4621113876097E-015,-43.2956880116958,-7.5));
#455=CARTESIAN_POINT('',(3.4621113876097E-015,-43.2956880116958,-7.5));
#456=CARTESIAN_POINT($,(3.4621113876097E-015,-43.2956880116958,-7.5));
#457=CARTESIAN_POINT('',(3.4621113876097E-015,-43.2956880116958,7.));
#458=CARTESIAN_POINT($,(3.4621113876097E-015,-43.2956880116958,7.));
#459=CARTESIAN_POINT($,(3.4621113876097E-015,-43.2956880116958,-7.5));
#460=CARTESIAN_POINT('Origin',(-30.6146745892072,-30.6146745892072,-7.5));
#461=CARTESIAN_POINT('',(-30.6146745892072,-30.6146745892072,-7.5));
#462=CARTESIAN_POINT($,(-30.6146745892072,-30.6146745892072,-7.5));
#463=CARTESIAN_POINT('',(-30.6146745892072,-30.6146745892072,7.));
#464=CARTESIAN_POINT($,(-30.6146745892072,-30.6146745892072,7.));
#465=CARTESIAN_POINT($,(-30.6146745892072,-30.6146745892072,-7.5));
#466=CARTESIAN_POINT('Origin',(-43.2956880116958,-1.73771777636018E-014,
-7.5));
#467=CARTESIAN_POINT('',(-43.2956880116958,-1.73771777636018E-014,-7.5));
#468=CARTESIAN_POINT($,(-43.2956880116958,-1.73771777636018E-014,-7.5));
#469=CARTESIAN_POINT('',(-43.2956880116958,-1.77635683940025E-014,7.));
#470=CARTESIAN_POINT($,(-43.2956880116958,-1.73771777636018E-014,7.));
#471=CARTESIAN_POINT($,(-43.2956880116958,-1.73771777636018E-014,-7.5));
#472=CARTESIAN_POINT('Origin',(-30.6146745892072,30.6146745892072,-7.5));
#473=CARTESIAN_POINT('',(-30.6146745892072,30.6146745892072,-7.5));
#474=CARTESIAN_POINT($,(-30.6146745892072,30.6146745892072,-7.5));
#475=CARTESIAN_POINT('',(-30.6146745892072,30.6146745892072,7.));
#476=CARTESIAN_POINT($,(-30.6146745892072,30.6146745892072,7.));
#477=CARTESIAN_POINT($,(-30.6146745892072,30.6146745892072,-7.5));
#478=CARTESIAN_POINT('Origin',(8.73440870143785E-016,43.2956880116958,-7.5));
#479=CARTESIAN_POINT($,(8.73440870143785E-016,43.2956880116958,-7.5));
#480=CARTESIAN_POINT($,(8.73440870143785E-016,43.2956880116958,7.));
#481=CARTESIAN_POINT('Origin',(0.,3.01535491872255E-015,7.));
#482=CARTESIAN_POINT('',(-37.,4.53119315684521E-015,7.));
#483=CARTESIAN_POINT('Origin',(0.,0.,7.));
#484=CARTESIAN_POINT('Origin',(0.,-27.664,2.));
#485=CARTESIAN_POINT('',(0.,-27.,2.));
#486=CARTESIAN_POINT('Origin',(0.,0.,2.));
#487=CARTESIAN_POINT('',(0.,-28.328,2.));
#488=CARTESIAN_POINT('Origin',(0.,0.,2.));
#489=CARTESIAN_POINT('Origin',(0.,0.,1.));
#490=CARTESIAN_POINT('',(0.,-27.,0.));
#491=CARTESIAN_POINT('Origin',(0.,0.,0.));
#492=CARTESIAN_POINT('Origin',(0.,-21.25,0.));
#493=CARTESIAN_POINT('',(0.,-15.5,0.));
#494=CARTESIAN_POINT('Origin',(0.,0.,0.));
#495=CARTESIAN_POINT('Origin',(0.,0.,-14.5));
#496=CARTESIAN_POINT('',(0.,-15.5,-29.));
#497=CARTESIAN_POINT('Origin',(0.,0.,-29.));
#498=CARTESIAN_POINT('Origin',(0.,-20.613,-29.));
#499=CARTESIAN_POINT('',(0.,-25.726,-29.));
#500=CARTESIAN_POINT('Origin',(0.,0.,-29.));
#501=CARTESIAN_POINT('Origin',(0.,0.,-19.));
#502=CARTESIAN_POINT('',(0.,-25.726,-9.));
#503=CARTESIAN_POINT('Origin',(0.,0.,-9.));
#504=CARTESIAN_POINT('Origin',(0.,0.,-9.00000000000001));
#505=CARTESIAN_POINT('',(0.,-27.226,-7.50000000000001));
#506=CARTESIAN_POINT('Origin',(0.,0.,-7.50000000000001));
#507=CARTESIAN_POINT('Origin',(0.,-32.113,-7.50000000000001));
#508=CARTESIAN_POINT('Origin',(0.,0.,16.25));
#509=CARTESIAN_POINT('',(0.,-37.,40.));
#510=CARTESIAN_POINT('Origin',(0.,0.,40.));
#511=CARTESIAN_POINT('Origin',(0.,-32.664,40.));
#512=CARTESIAN_POINT('',(0.,-28.328,40.));
#513=CARTESIAN_POINT('Origin',(0.,0.,40.));
#514=CARTESIAN_POINT('Origin',(0.,0.,21.));
#515=UNCERTAINTY_MEASURE_WITH_UNIT(LENGTH_MEASURE(0.01),#517,
'DISTANCE_ACCURACY_VALUE',
'Maximum model space distance between geometric entities at asserted c
onnectivities');
#516=(
GEOMETRIC_REPRESENTATION_CONTEXT(3)
GLOBAL_UNCERTAINTY_ASSIGNED_CONTEXT((#515))
GLOBAL_UNIT_ASSIGNED_CONTEXT((#517,#520,#518))
REPRESENTATION_CONTEXT('','3D')
);
#517=(
LENGTH_UNIT()
NAMED_UNIT(*)
SI_UNIT(.MILLI.,.METRE.)
);
#518=(
NAMED_UNIT(*)
SI_UNIT($,.STERADIAN.)
SOLID_ANGLE_UNIT()
);
#519=DIMENSIONAL_EXPONENTS(0.,0.,0.,0.,0.,0.,0.);
#520=(
CONVERSION_BASED_UNIT('degree',#522)
NAMED_UNIT(#519)
PLANE_ANGLE_UNIT()
);
#521=(
NAMED_UNIT(*)
PLANE_ANGLE_UNIT()
SI_UNIT($,.RADIAN.)
);
#522=PLANE_ANGLE_MEASURE_WITH_UNIT(PLANE_ANGLE_MEASURE(0.01745329252),#521);
#523=SHAPE_DEFINITION_REPRESENTATION(#524,#525);
#524=PRODUCT_DEFINITION_SHAPE('',$,#527);
#525=SHAPE_REPRESENTATION('',(#312),#516);
#526=PRODUCT_DEFINITION_CONTEXT('3D Mechanical Parts',#530,'design');
#527=PRODUCT_DEFINITION('IFFV200112','IFFV200112',#528,#526);
#528=PRODUCT_DEFINITION_FORMATION('',$,#532);
#529=APPLICATION_PROTOCOL_DEFINITION('international standard',
'automotive_design',2009,#530);
#530=APPLICATION_CONTEXT(
'Core Data for Automotive Mechanical Design Process');
#531=PRODUCT_CONTEXT('3D Mechanical Parts',#530,'mechanical');
#532=PRODUCT('IFFV200112','IFFV200112',$,(#531));
#533=PRESENTATION_STYLE_ASSIGNMENT((#535));
#534=PRESENTATION_STYLE_ASSIGNMENT((#536));
#535=SURFACE_STYLE_USAGE(.BOTH.,#537);
#536=SURFACE_STYLE_USAGE(.BOTH.,#538);
#537=SURFACE_SIDE_STYLE($,(#539));
#538=SURFACE_SIDE_STYLE($,(#540));
#539=SURFACE_STYLE_FILL_AREA(#541);
#540=SURFACE_STYLE_FILL_AREA(#542);
#541=FILL_AREA_STYLE($,(#543));
#542=FILL_AREA_STYLE($,(#544));
#543=FILL_AREA_STYLE_COLOUR($,#545);
#544=FILL_AREA_STYLE_COLOUR($,#546);
#545=COLOUR_RGB('',0.509803921568627,0.509803921568627,0.588235294117647);
#546=COLOUR_RGB('',1.,0.,0.);
ENDSEC;
END-ISO-10303-21;
